Seishun Kyousoukyoku Tab por Sambomaster

tablatura Ukulele sin acordes.

Añadir esta tab a su SongBook
Tablature / ChordsFont size: A- A A+

¿ No sabe cómo leer una tablatura o un acorde ?

curso de ukulele

A|-----------------------|----5----------------|
E|----36---5-----6-6-3--|----------3------3--|
C|------------5---------|---74-------4-------|
G|----10-----------------|---55---5-----5-----|

A|-----------------------|----5--------|
E|----36---5-----6-6-3--|------------|
C|------------5---------|---74-------|
G|----10-----------------|---55-------|

A|-------------------------------------------||------------------5-----5----5---5---5------|
E|----36------36---36---36--36---36----||---------------------------------------|
C|-------------------------------------||----7------------74---74--74-74-74-----|
G|----10-------10----10----10---10----10-----||----55-------5---55---55--55-55-55-----|

A|-------------------------------------------||-----5----x--x---5----x--x---5---x--x----5-|
E|----36------36---36---36--36---36----||---------x--x-------x--x------x--x-----|
C|-------------------------------------||----74---x--x--74---x--x--74--x--x---74|
G|----10-------10----10----10---10----10-----||----55---x--x--55---x--x--55--x--x---55|

A|----------|
E|---6------|
C|---5------|
G|---7------|

A|---9-------|
E|---10------|
C|---9------|
G|---11------|

A|---7-------|
E|---10------|
C|---7------|
G|---11------|

A|----------|
E|---6------|
C|---5------|
G|---7------|

A|---5-------|
E|----------|
C|--74------|
G|--55------|

A|---7-------|
E|---10------|
C|---7------|
G|---11------|

A|----------|
E|---6------|
C|---5------|
G|---7------|

A|---5-------|
E|----------|
C|--74------|
G|--55------|

A|---9-------|
E|---10------|
C|---9------|
G|---11------|

A|---6-------|
E|----------|
C|---66-----|
G|---66-----|

A|---7-------|
E|---10------|
C|---7------|
G|---11------|

A|----------|
E|---6------|
C|---5------|
G|---7------|

A|---5-------|
E|----------|
C|--74------|
G|--55------|

 

Comentarios (0)
Ningún comentario :(
¿Necesitas ayuda, un consejo para compartir o simplemente quieres hablar sobre esta canción? Comience la discusión

Debes iniciar sesión para unirte a la discusión
o Registrarse

 

Acerca de esta canción

No hay información por esta canción.