Cigarettes (Riff) Tab por Russian Red

tablatura Ukulele sin acordes.

Añadir esta tab a su SongBook
Tablature / ChordsFont size: A- A A+

¿ No sabe cómo leer una tablatura o un acorde ?

curso de ukulele

A -------------------------------------------------------------
E --------------------------------------------------2-----2----
C --1-----1-----1-----1-----0-----0-----0-----0----------------
G -----1-----1-----1-----1-----1-----1-----1-----1-----3-----3-


A ----------------------------------------
E --2-----2-----1-----1-------------------
C --------------------------3-----3-------
G -----3-----3-----3-----3-----1-----1----

 

Comentarios (0)
Ningún comentario :(
¿Necesitas ayuda, un consejo para compartir o simplemente quieres hablar sobre esta canción? Comience la discusión

Debes iniciar sesión para unirte a la discusión
o Registrarse

 

Acerca de esta canción

Conocida por muchos como la Feist espa