Dragula Tab por Rob Zombie

tablatura Ukulele sin acordes.

Añadir esta tab a su SongBook
Tablature / ChordsFont size: A- A A+

¿ No sabe cómo leer una tablatura o un acorde ?

curso de ukulele

|---------------------------------------------------------------------------------|
|-------------------------------------------------------------|
|-------------------------------------------------------------|
|-11--11--11--11--11--11--11--11--10--10--10--10--14--14--14--14--13--13--13--13--|

|-5--5----5--5--5--5--5--5---------5--5---5--5--5--5--5--5----------5--5----5--5--5--5--5--5-|
|-5--5----5--5--5--5--5--5---------5--5---5--5--5--5--5--5----------5--5----5--5--5--5--5--5-|
|--------------------------------------------------------------------------------------------|
|--------------------------------------------------------------------------------------------|

|-7--7--7--7--7--7--8--7--7--6--6--7------7--7--7--7--7--7--8--7--7--6--6--7-|
|-7--7--7--7--7--7--8--7--7--6--6--7------7--7--7--7--7--7--8--7--7--6--6--7-|
|----------------------------------------------------------------------------|
|----------------------------------------------------------------------------|

|-5----3--3--3--3--0--5---3--3--3--3--0--5----3--3--3--3--3--0--3\-|
|-5----3--3--3--3--0--5---3--3--3--3--0--5----3--3--3--3--3--0--3\-|
|------------------------------------------------------------------|
|------------------------------------------------------------------|

|-555--555--555--5--5---555--555--6-6--5--5--5-|
|-555--555--555--5--5---555--555--6-6--5--5--5-|
|----------------------------------------------|
|----------------------------------------------|

|-6~--------------6~--------------6~-----------------6~--|
|-6~--------------6~--------------6~-----------------6~--|
|-8---------------8---------------8------------------8---|
|--------------------------------------------------------|

 

Comentarios (0)
Ningún comentario :(
¿Necesitas ayuda, un consejo para compartir o simplemente quieres hablar sobre esta canción? Comience la discusión

Debes iniciar sesión para unirte a la discusión
o Registrarse

 

Acerca de esta canción

No hay información por esta canción.