Never Gonna Give You Up (Intro) Tab por Rick Astley

tablatura Ukulele sin acordes.

ImprimirAñadir esta tab a su SongBook
Tablature / ChordsFont size: A- A A+

¿ No sabe cómo leer una tablatura o un acorde ?

curso de ukulele

A|--------0-3-1-0-------------------------|
E|1-3---3---------1-3----------0-1-3---3--|
C|----0---------------0--0-0-2-------0----|
G|----------------------------------------|



A|0-3-1-0---------------------------------|
E|--------1-3-----------------------------|
C|------------0---------------------------|
G|----------------------------------------|

 

Comentarios (0)
Ningún comentario :(
¿Necesitas ayuda, un consejo para compartir o simplemente quieres hablar sobre esta canción? Comience la discusión

Debes iniciar sesión para unirte a la discusión
o Registrarse

 

Acerca de esta canción

No hay información por esta canción.