Losing My Religion Tab por Rem

6 Acordes utilizados en la canción: F, Am, G, Em, Dm, C

9.6/10
ImprimirAñadir esta tab a su SongBook

Tablature / Chords (Canción entera)

Font size: A- A A+

Artista: 
Año:  2003
Dificultad: 
3.17
(Principiante)
Key: C, AmAcordes y tablaturas
A|--5-7-5---------------------------------|
E|--------5-------------------------------|
C|----------------------------------------|
G|----------------------------------------|
F F


A|--7-5-7-5-------------------------------|
E|----------5-----------------------------|
C|----------------------------------------|
G|----------------------------------------|
Am Am


A|--7-5-7-5-------------------------------|
E|----------5-----------------------------|
C|----------------------------------------|
G|----------------------------------------|
F F


A|--7-5-7-5-------------------------------|
E|----------5-----------------------------|
C|----------------------------------------|
G|----------------------------------------|
Am Am G G
Oohhh...

Am Am
Life, is bigger
Em Em Am Am
It’s bigger than you, and you are not me
Em Em
The lengths that I will go to
Am Am
The distance in your eyes
Em Em Dm Dm
Oh no, I’ve said too much
G G
I set it up


Am Am
That’s me in the corner
Em Em
That’s me in the spot… light
Am Am
Losing my religion
Em Em
Trying to keep up with you
Am Am
And I don’t know if I can do it
Em Em Dm Dm
Oh no, I’ve said too much
G G
I haven’t said enough


G G F F
I thought that I heard you laughing
Dm Dm G G Am Am
I thought that I heard you sing
F F Dm Dm G G Am Am G G
I think I thought I saw you try


Am Am Em Em
Every whisper, of every waking hour
Am Am
I’m choosing my confessions
Em Em
Trying to keep an eye on you
Am Am
Like a hurt, lost and blinded fool, fool
Em Em Dm Dm
Oh no, I’ve said too much
G G
I set it up


Am Am
Consider this, consider this
Em Em
The hint of a century
Am Am
Consider this, the slip
Em Em
That brought me to my knees, failed
Am Am Em Em
What if all these fantasies come flailing around?
Dm Dm G G
And now I’ve said too much


G G F F
I thought that I heard you laughing
Dm Dm G G Am Am
I thought that I heard you sing
F F Dm Dm G G Am Am G G
I think I thought I saw you try


C C Dm Dm
But that was just a dream
C C Dm Dm
That was just a dream


Am Am
That’s me in the corner
Em Em
That’s me in the spot… light
Am Am
Losing my religion
Em Em
Trying to keep up with you
Am Am
And I don’t know if I can do it
Em Em Dm Dm
Oh no, I’ve said too much
G G
I haven’t said enough


G G F F
I thought that I heard you laughing
Dm Dm G G Am Am
I thought that I heard you sing
F F Dm Dm G G Am Am G G
I think I thought I saw you try


F F Dm Dm G G
But that was just a dream
Am Am
Try, cry, why, try
F F Dm Dm G G Am Am G G
That was just a dream, just a dream, just a dream, dream


A|--7-7-7-5-5-5-5-5-----------------------|
E|------------------8-8-8-5-5-5-5-5-------|
C|----------------------------------------|
G|----------------------------------------|

A|--7-7-7-5-5-5-5-5-----------------------|
E|------------------8-8-8-5-5-5-5-5-------|
C|----------------------------------------|
G|----------------------------------------|

A|--7-7-7-5-5-5-5-5-----------------------|
E|------------------8-8-8-5-5-5-5-5-------|
C|----------------------------------------|
G|----------------------------------------|

A|--7-7-7-5-5-5-5-5-7-5-----5-------------|
E|----------------------8-5---8-5-8-------|
C|----------------------------------------|
G|----------------------------------------|
Am Am

⇢ ¿No estás contento con esta tab? Ver 6 otra(s) versión(es)

Tab por , 28 ago 2016

Comentarios (2)

Comentar
¡Comparte tus patrones de rasgueo, acordes o consejos para tocar este tab!
Filtrar por:
batgirl4232 avatar
for the intro I find a good Strumming pattern after each plucking pattern is U-UDU-UU with slight muting after the 1st, 4th, and 6th strum. for the rest I find DDUUDU works fine!
07 Jan 2017
Patrón de rasgueo
kevinGDS avatar
The tab (intro) is average
06 Sep 2016
Comentario

Acerca de esta canción: Losing My Religion

No hay información por esta canción.

¿Has versionado a Losing My Religion con tu Ukelele? Comparte tu trabajo!
Submit a cover