Kataware Doki (Intro) Tab por RADWIMPS

tablatura Ukulele sin acordes.

ImprimirAñadir esta tab a su SongBook
Tablature / ChordsFont size: A- A A+

¿ No sabe cómo leer una tablatura o un acorde ?

curso de ukulele

A|----------------------------------------|
E|--3---3---3-3-0---------0---------------|
C|----------------2--2-0---------0--------|
G|----------------------------------------|



A|------------3-2-0---------0-------------|
E|--3--3-------------3---3-----3--0-1-0---|
C|---------0------------------------------|
G|----------------------------------------|



A|----------------------------------------|
E|-------------3--3--3-3--0----------0----|
C|--2-------0---------------2--2-0-------0|
G|----------------------------------------|



A|----------------------------------------|
E|------0-------------------------0-------|
C|--0-2---2----0--0--0-0-0----0-2---2-----|
G|----------------------------------------|



A|----------------------------------------|
E|------3--------------0------------------|
C|--0-0---0-2------0-2---2----0--0--0-0-0-|
G|----------------------------------------|



A|----------------------------------------|
E|------0--------------3------------------|
C|--0-2---2--------0-0---0-2--------------|
G|----------------------------------------|



A|--------------------------------3-------|
E|-------------3-------0------------------|
C|--0-2-0---------------------------------|
G|----------------------------------------|



A|----------------------------------------|
E|----------------------------------------|
C|----0---------2-----------0-------------|
G|----------------------------------------|

 

Comentarios (3)
Debes iniciar sesión para unirte a la discusión
o Registrarse

 

TomasTrench avatar
flag for CZ(ISO2) (Pitín)
man, love you
12 Dec 2018
StillANewbie avatar
flag for PH(ISO2) (Makati)
Can you teach me how to read this?
15 Oct 2018
asgardianuke avatar
This song has been stuck in my head for the longest time and I couldn't find any good ukulele tab, sooo I decided to learn the guitar tab and convert it. Here ya go, enjoy.
02 Apr 2018
Acerca de esta canción

No hay información por esta canción.