Somebody To Love (Intro) Tab por Queen

tablatura Ukulele sin acordes.

ImprimirAñadir esta tab a su SongBook
Tablature / ChordsFont size: A- A A+

¿ No sabe cómo leer una tablatura o un acorde ?

curso de ukulele

Can     An- y  bod- y

A|---0------0---2---4---7--------|
E|---0------0---0---4---4--------|
C|---1------1---1---4---4--------|
G|---2------2---2---4---4--------|

Find me---------

A|---4----2--0-------------------|
E|---4----------2--0-------------|
C|---4---------------------------|
G|---4---------------------------|

Somebody to----- love?

A|---------0---------2-----0-----|
E|------0---------4--------0-----|
C|---2---------4-----------1-----|
G|-------------------------2-----|

 

Comentarios (1)
Debes iniciar sesión para unirte a la discusión
o Registrarse

 

emstefank avatar
was good at the start
07 Dec 2016
Acerca de esta canción

No hay información por esta canción.