Love Of My Life (Intro) Tab por Queen

tablatura Ukulele sin acordes.

ImprimirAñadir esta tab a su SongBook
Tablature / ChordsFont size: A- A A+

¿ No sabe cómo leer una tablatura o un acorde ?

curso de ukulele

A|--------7----------------------5-4-5-9--|
E|--5-4-5------4-4-2-----------2----------|

A|----------7---7---5--------4-2-0-9------|
E|--2---0---------------------------------|

A|--7--9--9---------5--4--5-----5--2--4---|
E|----------------------------------------|

A|--4--5--4-----2--2--0-------------------|
E|-----------------------------2---0------|

A|------0---5---9---7------2--0--2--5--5--|
E|----------------------------------------|
C|--2-------------------------------------|

A|--------7----------------------5-4-5-9--|
E|--5-4-5------4-4-2-----------2----------|

A|----------7---7---5--------4-2-0-9------|
E|--2---0---------------------------------|

A|--7--9--9---------5--4--5-----5--2--4---|
E|----------------------------------------|

A|--4--5--4-----2--2--0-------------------|
E|-----------------------------2---0------|

A|------0---5---9---7------2--0--2--5--5--|
E|----------------------------------------|
C|--2-------------------------------------|

 

Comentarios (10)
Debes iniciar sesión para unirte a la discusión
o Registrarse

 

asgardianuke avatar
Thank you @88888888 @miggygaspar @likliklik !!!
19 May 2020
likliklik avatar
this the best tab!!!!!
09 Jun 2019
miggygaspar avatar
flag for PH(ISO2) (Davao)
what a nice
03 May 2019
88888888 avatar
amazing!!! thank you!!!
09 Apr 2019
asgardianuke avatar
@CYFI200 Glad you like it! Thank you!
07 Mar 2019
CYFI200 avatar
flag for US(ISO2) (Woodbury)
this is so accurate! thank you
04 Mar 2019
asgardianuke avatar
@AnaCartes96 Thank you!
18 Feb 2019
AnaCartes96 avatar
flag for AR(ISO2) (Yerba Buena)
i love it
18 Feb 2019
asgardianuke avatar
Thank you @Jen_Syx ! I'm sorry this was all I was able to put, but thank you!
15 Feb 2019
Jen_Syx avatar
Oooh, shit, this is great
13 Feb 2019
Acerca de esta canción

No hay información por esta canción.