Goodbyes (feat. Young Thug) Tab por Post Malone

tablatura Ukulele sin acordes.

Añadir esta tab a su SongBook
Tablature / ChordsFont size: A- A A+

¿ No sabe cómo leer una tablatura o un acorde ?

curso de ukulele

A|-0----0---0---0-------3--3-3-0---0---0---0----0----3-3-3-0--|
E|-------------------1----------------------------1-1---------|
C|------------------------------------------------------------|
G|---0--------0-----0----------------0------0-----------------|


A|-0---0--0----0--0----0----0-1--0---------1-0------0--|
E|---------------------------------1-----1------1------|
C|-----------------------------------------------------|
G|---0-------0------0-----0------------------------0---|

1
A|-3-8-8-5-3-1-0---3-8-8-5-3-1-0-1-0------1111110-----1111110--------|
E|--------------------------------------1-----------1-----------11---|
C|-------------------------------------------------------------------|
G|-----------------------------------0-------------------------0-----|

A|-------0-1-3------------0-1-3-----------------------|
E|-1--1-----------1---1-----------111-1-0-1-----------|
C|---2--------------2---------------------------------|
G|------0-------0-------0-------0---------------------|

 

Comentarios (0)
Ningún comentario :(
¿Necesitas ayuda, un consejo para compartir o simplemente quieres hablar sobre esta canción? Comience la discusión

Debes iniciar sesión para unirte a la discusión
o Registrarse

 

Acerca de esta canción

No hay información por esta canción.