The Pink Panther Theme Song Intro (Intro) Tab por Pink Panther

tablatura Ukulele sin acordes.

ImprimirAñadir esta tab a su SongBook
Tablature / ChordsFont size: A- A A+

¿ No sabe cómo leer una tablatura o un acorde ?

curso de ukulele

A|-------------2--------2--------------3--2-----|
E|-------------3--2--3--3--------2--3-----------|
C|-1--2--3--4--4--------4--3--4-----------------|
G|----------------------------------------------|

A|-----2--1--0----------------|
E|---3----0----3--0-----0-----|
C|-4------0----------2--------|
G|--------0-------------------|




A|-------------2--------2--------------3--2-----|
E|-------------3--2--3--3--------2--3-----------|
C|-1--2--3--4--4--------4--3--4-----------------|
G|----------------------------------------------|

A|-----7--6----|
E|---3----7----|
C|-4------0----|
G|--------0----|




A|-------------2--------2--------------3--2-----|
E|-------------3--2--3--3--------2--3-----------|
C|-1--2--3--4--4--------4--3--4-----------------|
G|----------------------------------------------|

A|-----2--1--0----------------|
E|---3----0----3--0-----0-----|
C|-4------0----------2--------|
G|--------0-------------------|




A|-7--5----------------1/0--1/0--1/0--1/0---------------2-|
E|-------7--5-------------------------------3--0-----0--3-|
C|--------------7--4-------------------------------2----4-|
G|--------------------------------------------------------|


A|-------------1---------------2-------|
E|-3--0-----0--0--3--0-----0---3-------|
C|-------2-----0--------2------4-------|
G|-------------0-----------------------|

 

Comentarios (1)
Debes iniciar sesión para unirte a la discusión
o Registrarse

 

SaMemax737 avatar
flag for US(ISO2) (San Francisco)
This is nearly identical to the ShadowFlare tab of this song: http://uke.freehostia.com/tabs/pink_panther.txt
28 May 2012
Acerca de esta canción

No hay información por esta canción.