Let Her Go Tab por Passenger

1 Acordes utilizados en la canción :

Añadir esta tab a su SongBook

Ver esos acordes para el baritono

Transpose chords:
Tablature / ChordsFont size: A- A A+

¿ No sabe cómo leer una tablatura o un acorde ?

curso de ukulele


A|-----0-2-0---------------------2------|
E|---------------3-------0-3-----3------|
C|-------------------2------------4------|
G|---------------------------------0------|



A|-----0-2-0-----------------------2-----------|
E|---------------3--------0-3------3------2----|
C|-------------------2--------------4------2----|
G|-----------------------------------0------2----|



A|--0-2-0-----------------5-----2--------2---- 2---|
E|----------3------0-3---------------3----------3---|
C|--------------2---------------------------------4---|
G|-------------------------------------------------0---| (Repeat)

 

Comentarios (0)
Ningún comentario :(
¿Necesitas ayuda, un consejo para compartir o simplemente quieres hablar sobre esta canción? Comience la discusión

Debes iniciar sesión para unirte a la discusión
o Registrarse

 

Acerca de esta canción

No hay información por esta canción.