Live In A Hole (Riff) Tab por Pantera

tablatura Ukulele sin acordes.

Añadir esta tab a su SongBook
Tablature / ChordsFont size: A- A A+

¿ No sabe cómo leer una tablatura o un acorde ?

curso de ukulele

|-1-2-2-1-1-2-2-1-1-|
|---0-0-----0-0-----|
|-4-----4-4-----4-4-|
|-------------------|

|-8--7--6--8--7--6--3--2--1--8--7--6--|
|----------8--7--6--3--2--1--8--7--6--|
|-12--11--10-----------------------------|
|-------------------------------------|

|---------------------------------------------------------------|
|---------6-5-4---------6-5-4------------6-5-4------------------|
|-5--4-3---------5-4-3-----------5--4-3-----------------------2-|
|---------------------------------------------------5--6--7-----|

|-------------------2-----|--------- --------2-|
|----------5--------------|---------5-4---3---2-|
|-6-----6-----1--0--------|-6----6----1---0-----|
|-------------------------|-----------6---5---4-|

|-------------------2-----|--------- --------2-|
|----------5--1--0--------|---------5-4---3---2-|
|-6-----6-----1--0--3-----|-6----6----1---0-----|
|-------------------------|-----------6---5---4-|

|--6--2----5--2----3----2-------\--|
|--4--0----3--0----1----0-------\--|
|----------------------------------|
|----------------------------------|

 

Comentarios (0)
Ningún comentario :(
¿Necesitas ayuda, un consejo para compartir o simplemente quieres hablar sobre esta canción? Comience la discusión

Debes iniciar sesión para unirte a la discusión
o Registrarse

 

Acerca de esta canción

No hay información por esta canción.