Cowboy From Hell (Riff) Tab por Pantera

tablatura Ukulele sin acordes.

Añadir esta tab a su SongBook
Tablature / ChordsFont size: A- A A+

¿ No sabe cómo leer una tablatura o un acorde ?

curso de ukulele

A|---5---5-7-5-7-5-8-5-7-5-7/9-12-|
E|-7---7--------------------------|x3
C|--------------------------------|
G|--------------------------------|

A|---5---5-7-5-7-5-8-875---|
E|-7---7-----------------7-|
C|-------------------------|
G|-------------------------|

 

Comentarios (1)
Debes iniciar sesión para unirte a la discusión
o Registrarse

 

MyRandomName avatar
That a realy nice, but where Pantera used it?
30 Dec 2018
Acerca de esta canción

No hay información por esta canción.