Porque Todavia Podemos Decir Una Vez Mas Tab por Panda

4 Acordes utilizados en la canción: A, E, B, C#m

Añadir esta tab a su SongBook
Tablature / ChordsFont size: A- A A+

¿ No sabe cómo leer una tablatura o un acorde ?

curso de ukulele

A |---------2---------------2---------0-----2-6-2--0-----2-4-2--|
E |-----0--------0----4-0--------0------0------------0----------|
C |---4---------------------------------------------------------|
G |-------4----4---4------4----4---4------4------------4--------|

A |-----------7-----------------7--------
E |-----4---4-----4-----5-5---5-----5-5-- x 2
C |---4-------------4--------------------
G |-------6-----6-----------6-----6------

A -----------7-----------------6-----2----0---|
E -----4---4-----4-------2---2-----2------0---|
C ---4-------------4---3------------------1---|
G -------6-----6-----------4-----4--------2---|

coro
A A E E
solo asienta por favor
C#m C#m
la cabeza si los planes han cambiado
B B A A
si los planes han cambiado

E E
solo niega sin razón con la cabeza si
C#m C#m
hoy se han quedado
B B
si hoy se han quedado
x
pero por favor no me dejes dudando

solo x 2

verso 2

dices tu que no te gusta que te ruegue
luego me pediste que me arrodille a tus pies
ya sabias que lo haria
pues no existe cosa que me detenga para hacerte sentir bien

me dejaste escapar irresponsabilidad
siempre regresaba en el final

coro

A A E E
sonríe por favor
C#m C#m
sonrie niña yo me quedaré
B B A A
te juro yo me quedaré
E E
si quieres tu llorar
C#m C#m
si tu lloras yo me ire al amanecer
B B
yo me ire al amanecer

A A
pero por favor
E E
no me dejes dudando
C#m C#m
no me dejes dudando
B B
no me dejes dudando
x
pero por favor
E E
no me dejes dudando

 

Comentarios (0)
Ningún comentario :(
¿Necesitas ayuda, un consejo para compartir o simplemente quieres hablar sobre esta canción? Comience la discusión

Debes iniciar sesión para unirte a la discusión
o Registrarse

 

Acerca de esta canción

No hay información por esta canción.