Shut Your Mouth (Intro) Tab por Pain

5 Acordes utilizados en la canción: B5, E5, D5, G5, F#5

ImprimirAñadir esta tab a su SongBook
Tablature / ChordsFont size: A- A A+

¿ No sabe cómo leer una tablatura o un acorde ?

curso de ukulele

A|------9----10---9-7-|-9---7-9-10-10-9-7---|
E|-7------7-----------|---------------------|
C|--------------------|---------------------|
G|--------------------|---------------------|\
x2
A|------9----10---9-7-|---------------------|/
E|-7------7-----------|-10---12-10-9-9-10-9-|
C|--------------------|---------------------|
G|--------------------|---------------------|

...B5......E5......D5......G5........
A|-2-2-2-2-2-2-2-2-0-0-0-0-5-5-5-5--|
E|-2-2-2-2-0-0-0-0-x-x-x-x-3-3-3-3--|
C|-x-x-x-x-4-4-4-4-2-2-2-2-2-2-2-2--|
G|-x-x-x-x-4-4-4-4-2-2-2-2-x-x-x-x--|\
...B5......E5......G5......F#5....... x2
A|-2-2-2-2-2-2-2-2-5-5-5-5-4-4-4-4--|/
E|-2-2-2-2-0-0-0-0-3-3-3-3-2-2-2-2--|
C|-x-x-x-x-4-4-4-4-2-2-2-2-1-1-1-1--|
G|-x-x-x-x-4-4-4-4-x-x-x-x-x-x-x-x--|

 

Comentarios (0)
Ningún comentario :(
¿Necesitas ayuda, un consejo para compartir o simplemente quieres hablar sobre esta canción? Comience la discusión

Debes iniciar sesión para unirte a la discusión
o Registrarse

 

Acerca de esta canción

No hay información por esta canción.