Canon In D (Riff) Tab por Pachabel

tablatura Ukulele sin acordes.

Añadir esta tab a su SongBook
Tablature / ChordsFont size: A- A A+

¿ No sabe cómo leer una tablatura o un acorde ?

curso de ukulele

tonalidad original : +2.0 mediotono [ ? ]
A|-10--7-8-10--7-8-10------------7-8-
E|------------------------7-8-10-----
C|--------------------7-9------------
G|-----------------------------------

A|-7-------7--------0-------3-2-3-
E|----8-10----0-1-3---3-1-3-------
C|--------------------------------
G|--------------------------------

A|-0--3-2-0----------------3-2-3-
E|-----------3-1-3-1-0-1-3-------
C|-------------------------------
G|-------------------------------

A|-0--3-2-0--2-3-2-3-5-3-2-3-0-2-
E|-------------------------------
C|-------------------------------
G|-------------------------------

 

Comentarios (0)
Ningún comentario :(
¿Necesitas ayuda, un consejo para compartir o simplemente quieres hablar sobre esta canción? Comience la discusión

Debes iniciar sesión para unirte a la discusión
o Registrarse

 

Acerca de esta canción

No hay información por esta canción.