Mama I'm Coming Home (Intro) Tab por Ozzy Osbourne

tablatura Ukulele sin acordes.

Añadir esta tab a su SongBook
Tablature / ChordsFont size: A- A A+

¿ No sabe cómo leer una tablatura o un acorde ?

curso de ukulele

A|-6---------|
E|---6-------|
C|-----7\5-3-|
g|-----------|


A|---6-----6-------6-----6-------6-----6-------6-----6-----|
E|-----6-----6-------6-----6-------6-----6-------6-----6---|
C|-----------------------------8-----7-----7-5-----3-----3-|
g|-8-----7-----7-5-----3-----3-----------------------------|

 

Comentarios (0)
Ningún comentario :(
¿Necesitas ayuda, un consejo para compartir o simplemente quieres hablar sobre esta canción? Comience la discusión

Debes iniciar sesión para unirte a la discusión
o Registrarse

 

Acerca de esta canción

No hay información por esta canción.