Crazy Train (Intro) Tab por Ozzy Osbourne

tablatura Ukulele sin acordes.

Añadir esta tab a su SongBook
Tablature / ChordsFont size: A- A A+

¿ No sabe cómo leer una tablatura o un acorde ?

curso de ukulele

A ------00-------------------55-------------------00------------55---- 
E -22-------00--22----------------00--22--------------00--22--------77
C --------------------------------------------------------------------
G --------------------------------------------------------------------

A-----0--1---0--------------------repeat as necessary
E----------------3-1-0-1-3-1-0----
C-2-2--2--2----2---------------0--
G---------------------------------

A-----0--1---0--------------------
E----------------3-1-0-1-3-1-0----
G-2-2--2--2----2---------------0-2
C---------------------------------

 

Comentarios (0)
Ningún comentario :(
¿Necesitas ayuda, un consejo para compartir o simplemente quieres hablar sobre esta canción? Comience la discusión

Debes iniciar sesión para unirte a la discusión
o Registrarse

 

Acerca de esta canción

No hay información por esta canción.