Bark At The Moon Tab por Ozzy Osbourne

tablatura Ukulele sin acordes.

Añadir esta tab a su SongBook
Tablature / ChordsFont size: A- A A+

¿ No sabe cómo leer una tablatura o un acorde ?

curso de ukulele

# Intro

---------------------
-12--12--12----10-10-
-11--11--11----11-11-
-9---9---9-----9--9--

----------------------------
-10--10--8---10--13---10/12-
-9---9---7---9---12----9/11-
-7---7---5---7---10----7/9--

----------------------
-12--12--12-----10-10-
-11--11--11-----11-11-
-9---9---9------9--9--

-1-0-1-3-1-0-----
-------------3-0-
-----------------
-----------------

---------------------
-12--12--12----10-10-
-11--11--11----11-11-
-9---9---9-----9--9--

----------------------------
-10--10--8---10--13---10/12-
-9---9---7---9---12----9/11-
-7---7---5---7---10----7/9--

----------------------
-12--12--12-----10-10-
-11--11--11-----11-11-
-9---9---9------9--9--

-1-0-1-3-1-0-----
-------------3-0-
-----------------
-----------------

# Chorus

-----------------------------------------------
-7--7-7-7--7-7-3--3-3-3--3-3-5--5-5-10-10-10-7-
-6--6-6-6--6-6-2--2-2-2--2-2-4--4-4-9---9--9-6-
-4--4-4-4--4-4-0--0-0-0--0-0-2--2-2-7---7--7-4-

-----4-4-----5-5-----4-4-----2-2-----
-2-2-----2-2-----2-2-----2-2-----2-2-
-------------------------------------
-------------------------------------

--------------------------------------
-7--7-7-7--7-7-3--3-3-3--3-3-7--5--7--
-6--6-6-6--6-6-2--2-2-2--2-2-6--4--6--
-4--4-4-4--4-4-0--0-0-0--0-0-4--2--4--

# Verse

---------------------
-12--12--12----10-10-
-11--11--11----11-11-
-9---9---9-----9--9--

----------------------------
-10--10--8---10--13---10/12-
-9---9---7---9---12----9/11-
-7---7---5---7---10----7/9--

----------------------
-12--12--12-----10-10-
-11--11--11-----11-11-
-9---9---9------9--9--

-1-0-1-3-1-0-----
-------------3-0-
-----------------
-----------------

---------------------
-12--12--12----10-10-
-11--11--11----11-11-
-9---9---9-----9--9--

----------------------------
-10--10--8---10--13---10/12-
-9---9---7---9---12----9/11-
-7---7---5---7---10----7/9--

----------------------
-12--12--12-----10-10-
-11--11--11-----11-11-
-9---9---9------9--9--

-1-0-1-3-1-0-----
-------------3-0-
-----------------
-----------------

# Next Part

--------------------
-7--------10/12---9-
-6---6-6---9/11---9-
--------------------

-------------------------------
---9---12-10-9-----9\7---7---7-
-9---9---------9---9\7-7-7---7-
-------------------------------

--------------------
-7--------10/12---9-
-6---6-6---9/11---9-
--------------------

-----------------------------------------------
-----9-9-----12-12-10-10-9-9-------9\7---7---7-
-9-9-----9-9-----------------9-9---9\7-7-7---7-
-----------------------------------------------

--------------------
-7--------10/12---9-
-6---6-6---9/11---9-
--------------------

-------------------------------
---9---12-10-9-----9\7---7---7-
-9---9---------9---9\7-7-7---7-
-------------------------------

--------------------
-7--------10/12---9-
-6---6-6---9/11---9-
--------------------

-----------------------------------------------
-----9-9-----12-12-10-10-9-9-------9\7---7---7-
-9-9-----9-9-----------------9-9---9\7-7-7---7-
-----------------------------------------------

 

Comentarios (0)
Ningún comentario :(
¿Necesitas ayuda, un consejo para compartir o simplemente quieres hablar sobre esta canción? Comience la discusión

Debes iniciar sesión para unirte a la discusión
o Registrarse

 

Acerca de esta canción

No hay información por esta canción.