Secrets Tab por Onerepublic

tablatura Ukulele sin acordes.

ImprimirAñadir esta tab a su SongBook
Tablature / ChordsFont size: A- A A+

¿ No sabe cómo leer una tablatura o un acorde ?

curso de ukulele

# This tab was created with a regularly tuned ukulele in mind 
# and therefore the notes may sound a little higher than those
# played in the song. However, I also have a tab for low-g tuned
# ukuleles here on Ukulele-Tabs.com that is more faithful to the
# song if anyone is interested.

A||--------5-----5-----------|--------5-----5-----------|
E||o----7-----7-----7-----7--|-----7-----7-----7-----7--|
C||o-7-----------------7-----|--7-----------------7-----|
G||--------------------------|--------------------------|


|--------5-----5-----------|--------5-----5-----------|
|-----7-----7-----7-----7--|-----7-----7-----7-----7--|
|--6-----------------6-----|--6-----------------6-----|
|--------------------------|--------------------------|


|--------7-----7-----------|--------7-----7-----------|
|-----7-----7-----7-----7--|-----7-----7-----7-----7--|
|--4-----------------4-----|--4-----------------4-----|
|--------------------------|--------------------------|

# (repeat ad
# nauseum)
|--------7-----7-----------|--------3-----3-----------||
|-----3-----3-----3-----3--|-----3-----3-----3-----3-o||
|--0-----------------0-----|--0-----------------0----o||
|--------------------------|--------------------------||

 

Comentarios (5)
Debes iniciar sesión para unirte a la discusión
o Registrarse

 

effervescent avatar
haha repeat ad nauseum. good tab
07 Jul 2018
Envisioned avatar
LOVE THIS! Thanks a bunch for posting this!!
18 Jan 2014
laureneckel@yahoo.co avatar
flag for US(ISO2) (Otto NC)
awesome!
24 Jan 2012
Ukulelinator avatar
You're welcome!
12 Jan 2010
Cate avatar
flag for US(ISO2) (helena)
wow great job thank you so much for posting!!
11 Jan 2010
Acerca de esta canción

No hay información por esta canción.