Fear Tab por One Republic

tablatura Ukulele sin acordes.

Añadir esta tab a su SongBook
Tablature / ChordsFont size: A- A A+

¿ No sabe cómo leer una tablatura o un acorde ?

curso de ukulele

Sup! So what u see here is a pretty awesome version of "Fear" tabs 4 ukulele.
Enjoy:)

#let ring all the chords
A|--------------------------|
E|--------------------------|
C|--------------------------|
G|-0--0--0---0--0---0--0--0-| X2

A|--------------------------|
E|-3------------------------|
C|-0------------------------|
G|-0--0--0---0--0---0--0--0-|

A|--------------------------|
E|--------------------------|
C|--------------------------|
G|-0--0--0---0--0---0--0--0-|

A|--------------------------|
E|-3------------------------|
C|-0------------------------|
G|-0--0--0---0--0---0--0--0-|

A|--------------------------|
E|-2------------------------|
C|-2------------------------|
G|-0--0--0---0--0---0--0--0-|

A|-5--2--5---5--2---5--2--5-|
E|-3--3--3---3--3---3--3--3-|
C|-2--2--2---2--2---2--2--2-|
G|-0--0--0---0--0---0--0--0-| X2

A|-7--2--7---7--2---7--2--7-|
E|-3--3--3---3--3---3--3--3-|
C|-2--2--2---2--2---2--2--2-|
G|-0--0--0---0--0---0--0--0-|

A|-5--2--5---5--2---0-------| #let ring the last chord
E|-3--3--3---3--3---3--3----|
C|-2--2--2---2--2---2--2----|
G|-0--0--0---0--0---0--0----|

So that`s it. Have fun!

 

Comentarios (0)
Ningún comentario :(
¿Necesitas ayuda, un consejo para compartir o simplemente quieres hablar sobre esta canción? Comience la discusión

Debes iniciar sesión para unirte a la discusión
o Registrarse

 

Acerca de esta canción

No hay información por esta canción.