Brucia La Terra Tab por Nino Rota

tablatura Ukulele sin acordes.

Añadir esta tab a su SongBook
Tablature / ChordsFont size: A- A A+

¿ No sabe cómo leer una tablatura o un acorde ?

curso de ukulele

|---------6-----6----|---------6-----6----|
|---3---3-----3------|---3---3----3-------|
|-0------------------|-0------------------|
|-----5-----5--------|-----5-----5--------|

|---------6----------|--------------------|---------6-----6----|---------6-----6----|
|---3---3-----3------|-4---4-----4---4----|---3---3-----3------|---3---3-----3------|
|-0------------------|---3---3-----3------|-0------------------|-0------------------|
|-----5-----5---5----|---------5----------|-----5-----5--------|-----5-----5--------|

|---------6----------|---------3----------|-------------3------|-------------3------|
|---3---3-----3------|---0---0-----0------|-----1-----1--------|-----1-----1--------|
|-0------------------|-0------------------|-5-0---0------------|-5-0---0------------|
|-----5-----5---5----|-----3-----3---3----|---------1-----1----|---------1-----1----|

|-------5-------5--------------|---------6-----6----|---------6-----6----|
|-3-3-------3-----3---3--------|---3---3-----3------|---3---3-----3------|
|-------------------2---2------|-0------------------|-0------------------|
|-----4---4---4----------4-----|-----5-----5--------|-----5-----5--------|

|---------5----------|---------5----------|---------6-----6----|---------6-----6----|
|-3-3---3-----3------|-3-3---3-----3------|---3---3-----3------|---3---3-----3------|
|--------------------|--------------------|-0------------------|-0------------------|
|-----4-----4---4----|-----4-----4---4----|-----5-----5--------|-----5-----5--------|

|----------------|----------------|--------------------|--------------------|
|-6---6----6--6--|-6---6----6--6--|---6---6--6----6----|---6---6--6----6----|
|---5---5--5----5|---5---5--5----5|-3---3----3--3------|-3---3----3--3------|
|----------7-----|----------7-----|----------8---------|----------8---------|

|---------6-----6----|--------------------|---------6-----6----|---------6-----6---|
|---3---3-----3------|-4---4-----4---4----|---3---3-----3------|---3---3-----3-----|
|-0------------------|---3---3-----3------|-0------------------|-0-----------------|
|-----5-----5--------|---------5----------|-----5-----5--------|-----5-----5-------|

|---------6-----6----|---------3----------|-------------3------|---------3----------|
|---3---3-----3------|---0---0-----0------|-----1-----1--------|-----1-------1------|
|-0------------------|-0------------------|-5-0---0------------|-5-0---0------------|
|-----5-----5--------|-----3-----3---3----|---------1-----1----|-----------1---1----|

|--------------------|---------5----------|---------6----------|---------6----------|
|-3-3---3-(3)---3----|-3-3---3-----3------|---3---3-----3------|---3---3-----3------|
|----------2---------|--------------------|-0------------------|-0------------------|
|-----4----4--4------|-----4-----4---4----|-----5-----5---5----|-----5-----5---5----|

|--------------------|--------------------|----------------|-------------------------|
|-3-3---3-(3)---3----|-3-3---3-(3)--------|-3------3--3----|-3---3--3----3---3--3----|
|----------2---------|----------2---------|-0------0--0----|-0---0--0----0---0--0----|
|-----4----4--4------|-----4----4---------|-5------5--5----|-5---5--5----5---5--5----|

 

Comentarios (0)
Ningún comentario :(
¿Necesitas ayuda, un consejo para compartir o simplemente quieres hablar sobre esta canción? Comience la discusión

Debes iniciar sesión para unirte a la discusión
o Registrarse

 

Acerca de esta canción

No hay información por esta canción.