Lo Fi, One Mic Tab por Night Gaunts

4 Acordes utilizados en la canción: A, C#, F#, D

Añadir esta tab a su SongBook
Tablature / ChordsFont size: A- A A+

¿ No sabe cómo leer una tablatura o un acorde ?

curso de ukulele

Use barre chords for ska, I'll put tab for the formation of the chords

Chords used: A A-C# C#-F# F#-D D

Chords shaped:

A A C# C# F# F# D D
A|---4------4------4------5----------------|
E|---5------4------6------5----------------|
C|---4------5------6------6----------------|
G|---6------6------6------7----------------|


Keyboard choruspart thang:

A|-0--0--4-3-4-3------0--0--4-3-4----------|
E|--------------------------------2--------|
C|-----------------------------------------|
G|-----------------------------------------|


A A
I'm running out of steam

C# C#
And I aint got the wages

F# F#
To pay the bills

D D
For my alcohol behaviors

A A
Tone it down, no

C# C#
it's not an option

F# F#
Escape reality on this

D D
Toxic poison

ect ect.

Same chords throughout.

 

Comentarios (0)
Ningún comentario :(
¿Necesitas ayuda, un consejo para compartir o simplemente quieres hablar sobre esta canción? Comience la discusión

Debes iniciar sesión para unirte a la discusión
o Registrarse

 

Acerca de esta canción

No hay información por esta canción.