La La La (Intro) Tab por Naughty Boy Ft. Sam Smith

tablatura Ukulele sin acordes.

Añadir esta tab a su SongBook
Tablature / ChordsFont size: A- A A+

¿ No sabe cómo leer una tablatura o un acorde ?

curso de ukulele

Intro 
A|-----11-12-11-9-7----7-11--9--7---------9--11------9---11--|
E|--9----------------9------------9---10----------10---------|
C|-----------------------------------------------------------|
G -----------------------------------------------------------|


A|-----11-12-11-9-7----7-11--9--7-----------8--------8--14--|
E|--9----------------9------------9---7--10----7--10--------|
C|----------------------------------------------------------|
G ----------------------------------------------------------|

For full version contact my on youtube or facebook
https://www.facebook.com/cosmin.birdaha

 

Comentarios (0)
Ningún comentario :(
¿Necesitas ayuda, un consejo para compartir o simplemente quieres hablar sobre esta canción? Comience la discusión

Debes iniciar sesión para unirte a la discusión
o Registrarse

 

Acerca de esta canción

No hay información por esta canción.