Sorri, Sou Rei (Intro) Tab por Natiruts

tablatura Ukulele sin acordes.

Añadir esta tab a su SongBook
Tablature / ChordsFont size: A- A A+

¿ No sabe cómo leer una tablatura o un acorde ?

curso de ukulele

S                S                                          
A|-----7----------------5----------------7-----------------7------------|
E|-5-------5--------3-------3--------5-------5---------5-------5--------|
C|-----------2-4-2------------2-4-2-------------------------------------|
G|---5---5------------4---4------------5---5----4-5-2----5---5---4-5-2--|
S S
A|-----7----------------5-7-5------------7-----------------7------------|
E|-5-------5--------3----------------5-------5---------5-------5--------|
C|-----------2-4-2------------2-4-2-------------------------------------|
G|---5---5------------4----------------5---5----4-5-2----5---5---4-5-2--|

 

Comentarios (0)
Ningún comentario :(
¿Necesitas ayuda, un consejo para compartir o simplemente quieres hablar sobre esta canción? Comience la discusión

Debes iniciar sesión para unirte a la discusión
o Registrarse

 

Acerca de esta canción

No hay información por esta canción.