All The Angels (Intro) Tab por My Chemical Romance

tablatura Ukulele sin acordes.

ImprimirAñadir esta tab a su SongBook
Tablature / ChordsFont size: A- A A+

¿ No sabe cómo leer una tablatura o un acorde ?

curso de ukulele

~~    
A|---------5-------4---2----|
E|---2-3-------2-----2-2----|
C|--------------------------|
G|-------4---4---3-----4----|
H ~
A|--------5-------4-------5---7-5-----|
E|--2-3-------2-----2-------------3---|
C|------------------------------------|
G|------4---4---3-----3-4---4---------|
~~
A|---------5-------4---2----|
E|---2-3-------2-----2-2----|
C|--------------------------|
G|-------4---4---3-----4----|

 

Comentarios (0)
Ningún comentario :(
¿Necesitas ayuda, un consejo para compartir o simplemente quieres hablar sobre esta canción? Comience la discusión

Debes iniciar sesión para unirte a la discusión
o Registrarse

 

Acerca de esta canción

No hay información por esta canción.