Plug In Baby (Intro) Tab por Muse

tablatura Ukulele sin acordes.

Añadir esta tab a su SongBook
Tablature / ChordsFont size: A- A A+

¿ No sabe cómo leer una tablatura o un acorde ?

curso de ukulele

# Tablature Legend
# ----------------
# h - hammer on
# p - pull off
# br - bend-release


A||--------4--------4--5-----|
E||--6--7-----6--7--------7--|
C||--------------------------|
G||--------------------------|


|--4--5--7--9h-10p-9--7--5--4--|-----4--5-----4--5--7--4--|
|------------------------------|--7--------7--------------|
|------------------------------|--------------------------|
|------------------------------|--------------------------|


|--5--7--9--9h-10p-9--8--9--8--|
|------------------------------|
|------------------------------|
|------------------------------|


|--9-------------------9--11--|
|-----10-----------10---------|
|---------9--6--9-------------|
|-----------------------------|


|--11br----9--8--9-------------|
|-------------------10--9--10--|
|------------------------------|
|------------------------------|


|--------4--------4--5-----|
|--6--7-----6--7--------7--|
|--------------------------|
|--------------------------|


|--5--7--9--9h-10p-9--8--9--8--|-----4--5-----4--5--7--4--|
|------------------------------|--7--------7--------------|
|------------------------------|--------------------------|
|------------------------------|--------------------------|


|--5--7--9--9h-10p-9--8--9--8--|
|------------------------------|
|------------------------------|
|------------------------------|


|--9-------------------9--11--|
|-----10-----------10---------|
|---------9--6--9-------------|
|-----------------------------|


|--11br----9--8--9-------------|-----4--5-----4--5--7--4--|
|-------------------10--9--10--|--7--------7--------------|
|------------------------------|--------------------------|
|------------------------------|--------------------------|


|--5--7--9--9h-10p-9--8--9--8--|-------------------||
|------------------------------|--7----------------||
|------------------------------|-------------------||
|------------------------------|-------------------||

 

Comentarios (4)
Debes iniciar sesión para unirte a la discusión
o Registrarse

 

snarkbolt avatar
flag for NZ(ISO2) (Christchurch)
Written well and very accurate, it will require some practice for me to get it though. thanks.
19 Jul 2010
Luv2tap avatar
flag for US(ISO2) (Oklahoma city)
The plug in baby intro is more accurate than this. Not bad though
08 Jul 2010
Ukulelinator avatar
Thanks for the praise and the heads up regarding the letters! I use Guitar Pro to cook up these tabs and it spits out the letters by default. After taking a closer look I realized that they aren't necessary since the tab is already pretty explicit with the spacing between the notes. I cleaned up my tabs a bit and I think readability has improved greatly. Thanks again for the tip and happy tabbing!
17 Nov 2009
JaxX avatar
flag for DE(ISO2) (Berlin)
AWSOME Job !! I give it a ten * :)
(I don't find letters above the tab really useful)
16 Nov 2009
Acerca de esta canción

No hay información por esta canción.