The First Noel Tab por Misc Christmas

tablatura Ukulele sin acordes.

Añadir esta tab a su SongBook
Tablature / ChordsFont size: A- A A+

¿ No sabe cómo leer una tablatura o un acorde ?

curso de ukulele

S                                                 
----5|------3-5-2--|-2-----2----|----------5---|-4-------6-----|-----------------|
-0---|---0------0-1|-3---3---1-3|--------3---5|-----3-------|------------5----|
-7---|-0-----------|-4----------|-5----4---5--|-4------6----|-5-------5-------|
-----|-------------|---0--------|-5-0--4---14--|-12-0----14--4-|-5-5--4----------|
S
---|-----------|---------8|-3-3-3-3-3---|------------|-2---2----|-------------|
---|-3---5-----|-5---3---4|-0-0-0-1-0---|-0-3-----0-1|---0---5--|---5---3-----|
-5-|-4-4----4--|----------|-----------2-|-0---4-2----|-------2-4|-5---4---5---|
---|----------4|---5---5--|-4-2-0-----0-|------------|-0-------4|-5---4---2---|

--|---------2-2|-3---2------|-2-------2--|-0-----0--|------5-|-----3-5-2------|
--|----0-------|-1---0-----0|-------0-1--|---0-----1|--0-0---|---0-----0-1----|
-2|-4----------|---------0--|---2-0------|---------8|--7-7---|-0--------------|
--|-0----0--2--|---0---0-2--|-0---2-----0|-5---0----|--------|----------------|
S
--2-----2------|---7----------|---------------|----------4----|-----------------|
--3---3--------|-5---5---4----|------5--------|----3---3-----|-3---5-1-7-1----|
--4------------|-----------7--|-6-6-----------|-5----4------2|-----2----------|
----0-------5-4|-------4---7--|-9-------9---7-|-5----4---4---|---5-----4------|

-----4------3|-----------------------------------------------------------------|
---1-----1--|-----------------------------------------------------------------|
-5---4------|-----------------------------------------------------------------|
-5---12-5-0--|-----------------------------------------------------------------|

 

Comentarios (1)
Debes iniciar sesión para unirte a la discusión
o Registrarse

 

kennyguy325 avatar
flag for US(ISO2) (Lake Elsinore)
This doesn’t sound like first Noel
30 Nov 2018
Acerca de esta canción

No hay información por esta canción.