O Christmas Tree Tab por Misc Christmas

tablatura Ukulele sin acordes.

Añadir esta tab a su SongBook
Tablature / ChordsFont size: A- A A+

¿ No sabe cómo leer una tablatura o un acorde ?

curso de ukulele

A|---3--3--3--5--7--7--7--7--5--7--8--2--5--3--3------|
E|---0--------3--3--------3--------5--3--3--0---------|
C|---0--------2--4--------4--------5--2--2--0---------|
G|0--0--------0--0--------0--------0--0--0--0---------| x2


A|--10--10--7--12--10--10\-\8--8--8--8--5--10--8--8--7--7--|
E|-------0-----13-------0------5-----5------7-----5-----3--|
C|-------0-----12-------0------5-----5------7-----5-----4--|
G|-------0--------------0------5-----5------------5-----0--|

A|---3--3--3--5--7--7--7--7--5--7--8--2--5--3--3------|
E|---0--------3--3--------3--------5--3--3--0---------|
C|---0--------2--4--------4--------5--2--2--0---------|
G|0--0--------0--0--------0--------0--0--0--0---------|

 

Comentarios (0)
Ningún comentario :(
¿Necesitas ayuda, un consejo para compartir o simplemente quieres hablar sobre esta canción? Comience la discusión

Debes iniciar sesión para unirte a la discusión
o Registrarse

 

Acerca de esta canción

No hay información por esta canción.