O Christmas Tree (duet) Tab por Misc Christmas

2 Acordes utilizados en la canción: G,C

Añadir esta tab a su SongBook
Tablature / ChordsFont size: A- A A+

¿ No sabe cómo leer una tablatura o un acorde ?

curso de ukulele

A|----------------0-0--0-0------0-1-----------------|
E|-----1-1--1-3--------------3------0---3----1------|
C|--0--------------------------------------------0--|
G|--------------------------------------------------|
UKULELE 1
G G C C G G C C G G C C
A|--3--3------3---3----------3----------3--------3--|
E|--2--0------2---0----------2----------0--------2--|
C|--3--0------3---0----------3----------0--------3--|
G|--0--0------0---0----------0----------0--------0--|
UKULELE 2


A|--------------0-0-0--0----0-1------------0--------|
E|--1-1--1---3------------3------0----1----1--------|
C|-----------------------------------------0--------|
G|--------------------------------------------------|
UKULELE 1

C C G G C C G G C C
A|--3--------3--3---------3-----------3-------------|
E|--0--------2--0---------2-----------0-------------|
C|--0--------3--0---------3-----------0-------------|
G|--0--------0--0---------0-----------0-------------|
UKULELE 2

 

Comentarios (0)
Ningún comentario :(
¿Necesitas ayuda, un consejo para compartir o simplemente quieres hablar sobre esta canción? Comience la discusión

Debes iniciar sesión para unirte a la discusión
o Registrarse

 

Acerca de esta canción

No hay información por esta canción.