Leise Rieselt Der Schnee (german Christmas Carol) Tab por Misc Christmas

tablatura Ukulele sin acordes.

Añadir esta tab a su SongBook
Tablature / ChordsFont size: A- A A+

¿ No sabe cómo leer una tablatura o un acorde ?

curso de ukulele

A|-5--5--3--5--3--1--1-----1--0-------------|
E|-6--6--1--1--1--1--0--3--3--1--0--1-------|
C|----------------------------------2-------|
G|-------------------------------0----------|
Leise rieselt der Schnee, still und starr ruht der See.


A|-3--2--3--6--5--3--1--3--------0--8--6--5-|
E|-3--3--3--5--5--5-----3--3--3--0-----1----|
C|----------------------------0-----------2-|
G|------------------------------------------|
Weihnachtlich glänzet der Wald. Freue dich, Christkind kommt bald!


A|-5--5--3--5--3--1--1-----1--0-------------|
E|-6--6--1--1--1--1--0--3--3--1--0--1-------|
C|----------------------------------2-------|
G|-------------------------------0----------|
In den Herzen wird's warm, still schweigt Kummer und Harm.


A|-3--2--3--6--5--3--1--3--------0--8--6--5-|
E|-3--3--3--5--5--5-----3--3--3--0-----1----|
C|----------------------------0-----------2-|
G|------------------------------------------|
Sorge des Lebens verhallt. Freue dich, Christkind kommt bald!


A|-5--5--3--5--3--1--1-----1--0-------------|
E|-6--6--1--1--1--1--0--3--3--1--0--1-------|
C|----------------------------------2-------|
G|-------------------------------0----------|
Bald ist heilige Nacht, Chor der Engel erwacht.


A|-3--2--3--6--5--3--1--3--------0--8--6--5-|
E|-3--3--3--5--5--5-----3--3--3--0-----1----|
C|----------------------------0-----------2-|
G|------------------------------------------|
Hört nur, wie lieblich es schallt. Freue dich, Christkind kommt bald!

 

Comentarios (0)
Ningún comentario :(
¿Necesitas ayuda, un consejo para compartir o simplemente quieres hablar sobre esta canción? Comience la discusión

Debes iniciar sesión para unirte a la discusión
o Registrarse

 

Acerca de esta canción

No hay información por esta canción.