Jolly Old St. Nicholas Tab por Misc Christmas

tablatura Ukulele sin acordes.

Añadir esta tab a su SongBook
Tablature / ChordsFont size: A- A A+

¿ No sabe cómo leer una tablatura o un acorde ?

curso de ukulele

~  ~  ~       ~  ~  ~       ~  ~  ~       ~  ~  ~    
A|-------------|-5-----------|-0-----------|-2-----------|
E|-0--0--0--0--|-3-----------|-0-----------|-0-----------|
C|-0-----------|-------------|-------------|-------------|
G|-0-----------|-0-----------|-2-----------|-0-----------|
~ ~ ~ ~ ~ ~ ~ ~ ~ ~ ~
A|-3-----------|-------------|-5-----------|-5-----------|
E|-1-----------|-0-----------|-3--------0--|-1-----------|
C|-5-----------|-0-----------|-------------|-7-----------|
G|-2--2--2--2--|-0-----------|-0-----------|-0-----------|
~ ~ ~ ~ ~ ~ ~ ~ ~ ~ ~ ~
A|-------------|-5-----------|-0-----------|-2-----------|
E|-0--0--0--0--|-3-----------|-0-----------|-0-----------|
C|-0-----------|-------------|-------------|-------------|
G|-0-----------|-0-----------|-2-----------|-0-----------|
~ ~ ~ ~ ~ ~ ~ ~ ~ ~ ~
A|-3-----------|-------------|-5-----------|-3-----------|
E|-1-----------|-0-----------|-3--------0--|-0-----------|
C|-5-----------|-0-----------|-------------|-2-----------|
G|-2--2--2--2--|-0-----------|-0-----------|-2-----------|

 

Comentarios (0)
Ningún comentario :(
¿Necesitas ayuda, un consejo para compartir o simplemente quieres hablar sobre esta canción? Comience la discusión

Debes iniciar sesión para unirte a la discusión
o Registrarse

 

Acerca de esta canción

No hay información por esta canción.