Away In A Manger (duet) Tab por Misc Christmas

4 Acordes utilizados en la canción: F,Bb,Gm,C

Añadir esta tab a su SongBook
Tablature / ChordsFont size: A- A A+

¿ No sabe cómo leer una tablatura o un acorde ?

curso de ukulele

A|---------------0---------0--1---------|
E|------1--1--3-----1--1----------------|
C|--0---0-----------0-------------------|
G|------2-----------2-------------------|
UKULELE 1

F F F F
A|------0-----------0-------------------|
E|------1-----------1-------------------|
C|------0-----------0-------------------|
G|------2-----------2-------------------|
UKULELE 2


A|--3--3--5---1-----0---1---1--3--------|
E|--1---------1--3------1---------------|
C|--0---------2---------2---------------|
G|--2---------3---------3---------------|
UKULELE 1

F F Bb Bb Bb Bb
A|--0---------1---------1---------------|
E|--1---------1---------1---------------|
C|--0---------2---------2---------------|
G|--2---------3---------3---------------|
UKULELE 2


A|--0--0-----0--------------------------|
E|--1-----1------3-----1---0------------|
C|--0------------2--2------0---0--------|
G|--2------------0---------0------------|
UKULELE 1

F F Gm Gm C C
A|--0------------1---------3------------|
E|--1------------3---------0------------|
C|--0------------2---------0------------|
G|--2------------0---------0------------|
UKULELE 2


A|-----------0--------0--1--3--3--5-----|
E|--1--1--3-----1--1--------1-----------|
C|--0-----------0-----------0-----------|
G|--2-----------2-----------2-----------|
UKULELE 1

F F F F F F
A|--0-----------0-----------0-----------|
E|--1-----------1-----------1-----------|
C|--0-----------0-----------0-----------|
G|--2-----------2-----------2-----------|
UKULELE 2


A|--1-----0---1--1--3---0--0-----0------|
E|--1--3------1---------1-----1---------|
C|--2---------2---------0---------------|
G|--3---------3---------2---------------|
UKULELE 1

Bb Bb Bb Bb F F
A|--1---------1---------0---------------|
E|--1---------1---------1---------------|
C|--2---------2---------0---------------|
G|--3---------3---------2---------------|
UKULELE 2


A|----------------------|
E|--3-----0---1---------|
C|--2--2------0---------|
G|--0---------2---------|
UKULELE 1

Gm Gm F F
A|--1---------0---------|
E|--3---------1---------|
C|--2---------0---------|
G|--0---------2---------|
UKULELE 2

 

Comentarios (0)
Ningún comentario :(
¿Necesitas ayuda, un consejo para compartir o simplemente quieres hablar sobre esta canción? Comience la discusión

Debes iniciar sesión para unirte a la discusión
o Registrarse

 

Acerca de esta canción

No hay información por esta canción.