Amazing Grace Tab por Misc Christmas

6 Acordes utilizados en la canción: G, G7, C, D, D7, Em

Añadir esta tab a su SongBook
Tablature / ChordsFont size: A- A A+

¿ No sabe cómo leer una tablatura o un acorde ?

curso de ukulele

G G                        G7 G7                          C C
Amazing grace! How sweet the
A|-------------------2-----------2---------------0-------------------------------------|
E|-----------3-----------3---------------------------------3------------------0-------|
C|--2-----------------------------------------------------------------------------------|
G|--------------------------------------------------------------------------------------|

G G D D D7 D7
sound, That saved and set me free!
A|----------------------------------------------------2---------------2---------------0------------5-------|
E|-------------------------------------3--------------------3-----------------------------------------------|
C|-------2--------------2-----------------------------------------------------------------------------------|
G|-----------------------------------------------------------------------------------------------------------|

G G G7 G7 C C G G
I once - was lost, but now - I am found,
A|---2---------------5-------------2-----5-----2-------------------------------------------------------------------------|
E|---------------------------------------------------------3--------------------------0---------3------3-----0-----------|
C|--------------------------------------------------------------------------2-------------------------------------------2--|
G|--------------------------------------------------------------------------------------------------------------------------|

Em Em D7 D7 G G
was blind, but - now I see!
A|----------------------------------2----------2--------------------------0----------------------|
E|----------------3----------------------3---------------------------------------------------3---|
C|----2-------------------------------------------------------------------------------------------|
G|-------------------------------------------------------------------------------------------------|

 

Comentarios (0)
Ningún comentario :(
¿Necesitas ayuda, un consejo para compartir o simplemente quieres hablar sobre esta canción? Comience la discusión

Debes iniciar sesión para unirte a la discusión
o Registrarse

 

Acerca de esta canción

No hay información por esta canción.