Stolen Dance Tab por Milky Chance

tablatura Ukulele sin acordes.

Añadir esta tab a su SongBook
Tablature / ChordsFont size: A- A A+

¿ No sabe cómo leer una tablatura o un acorde ?

curso de ukulele

tonalidad original : +0.5 mediotono [ ? ]
Intro and Verse:

A|--3---3---2---2---3---3---3---3---3---3---3---3---2---2---2---2-|
E|-5------3-------1---------------0---------------4-----------4---|
C|4-------2-------0---------------0---------------4-----------4---|
G|--2---2---0---0---2---2---2---2---0---0---0---0---1---1---1---1-|

Chorus:

A|0----0--0----0--3----3--3----3--2----2--2----2--3----3--2----2--|
E|---1-------1-------0-------0-------4-------4-------5-------3----|
C|--0---0---0---0---0---0---0---0---4---4---4---4---4---4---2---2-|
G|----------------------------------------------------------------|

 

Comentarios (0)
Ningún comentario :(
¿Necesitas ayuda, un consejo para compartir o simplemente quieres hablar sobre esta canción? Comience la discusión

Debes iniciar sesión para unirte a la discusión
o Registrarse

 

Acerca de esta canción

No hay información por esta canción.