Young Bride (Riff) Tab por Midlake

tablatura Ukulele sin acordes.

Añadir esta tab a su SongBook
Tablature / ChordsFont size: A- A A+

¿ No sabe cómo leer una tablatura o un acorde ?

curso de ukulele

s  s s  s  s s s s s   s   s s s           
A --------------------------------------------
E 3----------4--------------------------------
C ---5--3-5-----------3-----------------------
G --------------5-3-5---3-1-3-3-5-3-5---------
s s s s s s s s s s s s s
A --------------------------------------------
E 3----------4--------------------------------
C ---5--3-5-----------3-------5--3----3-------
G --------------5-3-5---3-1-3-------5---------
s s s s s s s s s s s s s s s
A --------------------------------------------
E 3----------4--------------------------------
C ---5--3-5-----------3-----------------------
G --------------5-3-5---3-1-3-3-5-3-5-1-3-1-3-

 

Comentarios (0)
Ningún comentario :(
¿Necesitas ayuda, un consejo para compartir o simplemente quieres hablar sobre esta canción? Comience la discusión

Debes iniciar sesión para unirte a la discusión
o Registrarse

 

Acerca de esta canción

No hay información por esta canción.