Wheels On The Bus (Intro) Tab por Melanie Martinez

tablatura Ukulele sin acordes.

ImprimirAñadir esta tab a su SongBook
Tablature / ChordsFont size: A- A A+

¿ No sabe cómo leer una tablatura o un acorde ?

curso de ukulele

[Intro]
A|-----------2-5-2---0-----5-2------------|
E|---3-3-3-3-------3---2-------3----------|
C|-2---------------------2----------------|
G|----------------------------------------|



A|-----------2-5-2---0--------------------|
E|---3-3-3-3-------3-------3--------------|
C|-2-------------------2-2----------------|
G|----------------------------------------|

 

Comentarios (2)
Debes iniciar sesión para unirte a la discusión
o Registrarse

 

Bams_01 avatar
flag for ID(ISO2) (Jakarta)
cool
10 Oct 2019
KitKatUke46 avatar
flag for JP(ISO2) (Tokyo)
This is lit!
08 Oct 2019
Acerca de esta canción

No hay información por esta canción.