Ce Soir Tu Vas Prendre (intro) (Intro) Tab por Max Boublil

tablatura Ukulele sin acordes.

ImprimirAñadir esta tab a su SongBook
Tablature / ChordsFont size: A- A A+

¿ No sabe cómo leer una tablatura o un acorde ?

curso de ukulele

Intro :

A|--10---10---10---10---10---10---10---10--
E|--11---11---11---11---11---11---11---11--
C|--10---10---10---10---10---10---10---10--
G|-----------------------------------------

---8----8----8----8----8----8----8----8--
--10---10---10---10---10---10---10---10--
--10---10---10---10---10---10---10---10--
-----------------------------------------

---8----8----8----8----8----8----8----8--
---8----8----8----8----8----8----8----8--
---8----8----8----8----8----8----8----8--
-----------------------------------------

---6----6----6----6----6----6----6----6--|
---8----8----8----8----8----8----8----8--|
---8----8----8----8----8----8----8----8--|
-----------------------------------------|

 

Comentarios (2)
Debes iniciar sesión para unirte a la discusión
o Registrarse

 

Gavroche33 avatar
flag for FR(ISO2) (Bordeaux)
Tks =)
05 Dec 2010
ukematt avatar
flag for US(ISO2) (San Jose)
Nice sounding tab. Nice and easy to play. Good job.
03 Dec 2010
Acerca de esta canción

No hay información por esta canción.