Monsters Tab por Matchbook Romance

10 Acordes utilizados en la canción: Bbm, F/A, C#, Ebm, F#, Fm, E, G#, Eb/G, F

Añadir esta tab a su SongBook

Ver esos acordes para el baritono

Transpose chords:
Acordes:
Mantén los accordes en la pantalla mientras te desplazas
Tablature / ChordsFont size: A- A A+

¿ No sabe cómo leer una tablatura o un acorde ?

curso de ukulele

Intro: Bbm Bbm(plucking) x2 until Verses
A|-8-----------8------------8--------------7-8-9-11-|
E|----6-----6-----6-----6-------6------6------------|
C|--------------------------------------------------|
G|-------6----------6---------------6---------------|

Verse 1:
Bbm Bbm
girl what's come
between you and me?
look right through me
Bbm Bbm
i'll let it go
i can't help this
feeling anymore
i won't go anywhere
maybe you'll see me


Refrain: Bbm Bbm F/A F/A C# C# Ebm Ebm


Chorus:
Bbm Bbm
we are we are
F# F#
the shaken
C# C#
we are the monsters
Fm Fm
underneath your bed
F# F#
yeah believe
Ebm Ebm
what you read
Bbm Bbm
we are we
F# F#
are mistaken
C# C#
we are the voices
Fm Fm
inside your head
F# F#
yeah believe
Ebm Ebm
what you see


Interlude: Bbm Bbm - x4


Verse 2:
it came as
Bbm Bbm
no surprise
you bring me
back to life
believe me
you bleed for me
i'll bleed for you
i caught you
walking through walls
drowned with applause
that makes me crazy


(Repeat Chorus)


Interlude: Bbm ----E(hold)

Guitar 2: E E(hold)
A|---------------------------------------|
E|--1----------------0-------------------|
C|----3--1--3--1--0----------------------|
G|---------------------------------------|


Bbm Bbm F/A F/A G# G# Eb/G Eb/G


Guitar 2: x18
A|-8-----------8------------8--------------7-8-9-11-|
E|----6-----6-----6-----6-------6------6------------|
C|--------------------------------------------------|
G|-------6----------6---------------6---------------|


Bridge:
Bbm Bbm
we are the monsters
F/A F/A
we are the monsters
C# C#
we are the monsters
Ebm Ebm
underneath your bed
Bbm Bbm
we are the voices
F/A F/A
we are the voices
C# C#
we are the voices
Ebm Ebm
underneath your bed
Bbm Bbm
we are the monsters
F/A F/A
we are the monsters
C# C#
we are the monsters
Ebm Ebm
yeah yeah yeah yeah yeah


Lead Solo: Bbm Bbm F# F# C# C# Fm Fm F# F# Ebm Ebm x2


(Repeat chorus)


Outro:
Bbm Bbm
we are we are
F# F#
the shaken
C# C#
we are the monsters
Fm Fm
underneath your bed
F F (hold)
yeah believe
Ebm Ebm(hold) Bbm Bbm(hold)
what you see

 

Comentarios (0)
Ningún comentario :(
¿Necesitas ayuda, un consejo para compartir o simplemente quieres hablar sobre esta canción? Comience la discusión

Debes iniciar sesión para unirte a la discusión
o Registrarse

 

Acerca de esta canción

No hay información por esta canción.