Sleeping Giant (Intro) Tab por Mastodon

tablatura Ukulele sin acordes.

Añadir esta tab a su SongBook
Tablature / ChordsFont size: A- A A+

¿ No sabe cómo leer una tablatura o un acorde ?

curso de ukulele

# Mastodon on the Uke

# Check sleeping Giant out on You Tube!

# (Courtesy of guitar tab converter and www.ultimateguitar.com)


A||---------------------------------------------------------------------------|
E||---------------------3--------------3--------------------------------3-----|
C||-4-2-4-5-----4-2-4-5--------4-2-4-5---5-4-2-----4--2-4-5-----4-2-4-5-------|
F||--------------------12-----------------------------------------------12----|

A|------------------------------5---------------7-------||
E|---------3-----------------------3--------5----5------||
C|-4-2-4-5---5-4-2-----2-0--2-4-5-------------------4---||
F|-------------------0------7-9-10--12------------------||

 

Comentarios (0)
Ningún comentario :(
¿Necesitas ayuda, un consejo para compartir o simplemente quieres hablar sobre esta canción? Comience la discusión

Debes iniciar sesión para unirte a la discusión
o Registrarse

 

Acerca de esta canción

No hay información por esta canción.