Catalejo Tab por Manuel García

tablatura Ukulele sin acordes.

Añadir esta tab a su SongBook
Tablature / ChordsFont size: A- A A+

¿ No sabe cómo leer una tablatura o un acorde ?

curso de ukulele

A:-------2-------2-------2-------2---------2-------2-------2-------2--
E:--0--------0-------0-------0-----2---------------------------------2
C:-------------------------------------3-------3-------3-------3-----
G:-----0-------0-------0-------0---------0-------0-------0-------0---

A:------3------3------3---2-----5---0-------3----------3-------
E:---------------------------------0----------3----------------
C:--0------0------0--------------------------------------------
G:----0------0------0--------0----------2---------2------------

A:-------5-----5------5--------5---2---2--2---2--2---2-2---2---
E:------------------------------2----------------------------0-
C:---6------6------6------6------------------------------------
G:-----2-----2------2--------2-------0------0------0-----0-----

A:------3------3------3------3----2---5--2---5--2---5----
E:-----------------------------0----------------------2--
C:--0------0------0------0-------------------------------
G:----0------0------0------0--------4------4------4------

A:2-----2-2-----2-2-----2--2-----2---0-----2--0-----5---0-----4-0---4
E:--0-------0-------0--------0---------0--------0---------0-------0--
C:-------------------------------------------------------------------
G:----1-------1-------1--------1---------2--------2---------2------2-

A:------7-------7-------7-------7--------4-------4-------4-------4---
E:--------4-------4-------4-------4--------2-------2-------2-------2-
C:1-------1-------1--------1---------6-------6-------6-------6-------
G:----6-------6-------6------6---------2-------2-------2-------2-----

A:----2------2-------2-----2-------2-------2--------2-------2----
E:3-----0-3----0-3-----2-3---2-3-----3-3-----3--3-----0-3-----0--
C:---------------------------------------------------------------
G:--0------0-------0-----0-------0-------0--------0-------0------

A:2---5---2---5---2---5----2---5------
E:------2-------2-------2--------2-----
C:-----------------------------------
G:--4-------4-------4--------4-------

A:----2------2-------2-----2-------2-------2--------2-------2----
E:3-----0-3----0-3-----2-3---2-3-----3-3-----3--3-----0-3-----0--
C:---------------------------------------------------------------
G:--0------0-------0-----0-------0-------0--------0-------0------

A:2---5---2---5---2---5----2---5------
E:------2-------2-------2--------2-----
C:-----------------------------------
G:--4-------4-------4--------4-------

A:----2------2-------2-----2-------2-------2--------2-------2----
E:3-----0-3----0-3-----2-3---2-3-----3-3-----3--3-----0-3-----0--
C:---------------------------------------------------------------
G:--0------0-------0-----0-------0-------0--------0-------0------

A:2---5---2---5---2---5----2---5------
E:------2-------2-------2--------2-----
C:-----------------------------------
G:--4-------4-------4--------4-------

 

Comentarios (0)
Ningún comentario :(
¿Necesitas ayuda, un consejo para compartir o simplemente quieres hablar sobre esta canción? Comience la discusión

Debes iniciar sesión para unirte a la discusión
o Registrarse

 

Acerca de esta canción

No hay información por esta canción.