I Can Feel A Hot One Tab por Manchester Orchestra

tablatura Ukulele sin acordes.

Añadir esta tab a su SongBook
Tablature / ChordsFont size: A- A A+

¿ No sabe cómo leer una tablatura o un acorde ?

curso de ukulele

Intro:

A|-----3--------------3---------------------|
E|---0---0---0------0---0---0-------------------|
C|-0-------0------0-------0-------------------|
G|-------------4--------------4-------------|


Verses:

A|-----3--------------3---------------------|
E|---0---0---0------0---0---0-------------------|
C|-0-------0------0-------0-------------------|
G|-------------4--------------4-------------|


A|-----3-------3----------------------------|
E|---0---0---0-------------------------------|
C|-----0-------0----------------------------|
G|-2-------2--------------------------------|


A|-------0---------------------------------|
E|-----3-----------------------------------|
C|---0-------------------------------------|
G|-2---------------------------------------|


A|-----2-----------------------------------|
E|---3-------------------------------------|
C|-2---------------------------------------|
G|----------------------------------------|


A|-----3--------------3---------------------|
E|---0---0---0------0---0---0-------------------|
C|-0-------0------0-------0-------------------|
G|-------------4--------------4-------------|

 

Comentarios (0)
Ningún comentario :(
¿Necesitas ayuda, un consejo para compartir o simplemente quieres hablar sobre esta canción? Comience la discusión

Debes iniciar sesión para unirte a la discusión
o Registrarse

 

Acerca de esta canción

No hay información por esta canción.