I Think I'm Okay (Intro) Tab por Machine Gun Kelly

tablatura Ukulele sin acordes.

ImprimirAñadir esta tab a su SongBook
Tablature / ChordsFont size: A- A A+

¿ No sabe cómo leer una tablatura o un acorde ?

curso de ukulele

A|------5-------------------------5------------------------------------------|
E|---3--------3-----3--3--3----3--------3-----3--3--3------------------------|
C|---------------------------------------------------------------------------|
G|---------4-----4-------------------4-----4---------------------------------|

A|------5--------------------------------------------------------------------|
E|---3--------3-----3--3--3----3--------3-----3--3--3------------------------|
C|---------------------------------------------------------------------------|
G|---------4-----4----------------5--4-----4---------------------------------|

 

Comentarios (1)
Debes iniciar sesión para unirte a la discusión
o Registrarse

 

ishneetiny avatar
flag for MY(ISO2) (Petaling Jaya)
does anyone know the chords for this song? :( I don't know how to read tabs. a rookie ukulele player for fun here
14 Apr 2020
Acerca de esta canción

No hay información por esta canción.