Machistador (Riff) Tab por M (Mathieu Chedid)

tablatura Ukulele sin acordes.

Añadir esta tab a su SongBook
Tablature / ChordsFont size: A- A A+

¿ No sabe cómo leer una tablatura o un acorde ?

curso de ukulele

-------------------9p11----------------------|
----------777-8-9----------------777-8-9--8-7|
8--8--8----------------8--8--8---------------|
---------------------------------------------|

 

Comentarios (1)
Debes iniciar sesión para unirte a la discusión
o Registrarse

 

mythologyes avatar
flag for FR(ISO2) (Saint-Avold)
--------1-1-2-3--8p10---------1-1-2-3-3-1----|
---------------------------------------------|
---------------------------------------------|
0--0--0----------------0--0--0------------0--|
04 Mar 2011
Acerca de esta canción

No hay información por esta canción.