Secret Love Song (Solo) Tab por Little Mix

tablatura Ukulele sin acordes.

Añadir esta tab a su SongBook
Tablature / ChordsFont size: A- A A+

¿ No sabe cómo leer una tablatura o un acorde ?

curso de ukulele

A|---------------------------------------------------------------------------|
E|----5------------------5----------5--4-4--5--------------------------------|
C|--4------------------4-----------------------------------------------------|
G|-------4--6--6-6-6-- -----4--6-4-------------------------------------------|
~
A|--------------------|--4-|-------------------------------------------------|
E|----5--------5--5---|----|----------------------5--------------------------|
C|--4-----------------|----|---------4---------------------------------------|
G|-------4--9---------|----|-----------7--6----4-----4-----------------------|

 

Comentarios (0)
Ningún comentario :(
¿Necesitas ayuda, un consejo para compartir o simplemente quieres hablar sobre esta canción? Comience la discusión

Debes iniciar sesión para unirte a la discusión
o Registrarse

 

Acerca de esta canción

No hay información por esta canción.