Kashmir (Riff) Tab por Led Zeppelin

tablatura Ukulele sin acordes.

ImprimirAñadir esta tab a su SongBook
Tablature / ChordsFont size: A- A A+

¿ No sabe cómo leer una tablatura o un acorde ?

curso de ukulele

A||--0-0-0-----0-0-0-----||---1-1-1-----1-1-1-----|
E||----------------------||o----------------------|
C||--2-2-2-----2-2-2--2--||o--2-2-2-----2-2-2--2--|
G||----------------------||-----------------------|


|--2-2-2-----2-2-2-----|--3-3-3-----3-3-3-----|
|----------------------|----------------------|
|--2-2-2-----2-2-2--2--|--2-2-2-----2-2-2--2--|
|----------------------|----------------------|

# (repeat ad
# nauseum)
|--5-5-5-----0-0-0------||
|----------------------o||
|--2-2-2-----2-2-2--2--o||
|-----------------------||

 

Comentarios (2)
Debes iniciar sesión para unirte a la discusión
o Registrarse

 

panda2 avatar
flag for SY(ISO2) (Damascus)
Perfect tab, as usual. THX for this hit!
17 Jun 2010
minefield avatar
flag for AU(ISO2) (Bunbury)
not bad ;) Good job.
18 Nov 2009
Acerca de esta canción

No hay información por esta canción.