Black Dog (Intro) Tab por Led Zeppelin

tablatura Ukulele sin acordes.

ImprimirAñadir esta tab a su SongBook
Tablature / ChordsFont size: A- A A+

¿ No sabe cómo leer una tablatura o un acorde ?

curso de ukulele

# Tablature Legend
# ----------------
# h - hammer on
# p - pull off
# b - bend
# S - shift slide

|---3---|
A||-------------------------|--3b----0----5--7--3h--5p--3--|
E||----------0--3--4--5--0--|------------------------------|
C||-------------------------|------------------------------|
G||-------------------------|------------------------------|


|--0--0--3b----0-------0--|--0-----------------------|
|-------------------------|-------------------0------|
|-------------------------|-----2--4S-2-0--2--0------|
|-------------------0-----|--------------------------|

(x3)
|--0--|--|---||-----------------|-------------------------|
|--0--|--|--o||-----------------|--3b----0----------------|
|--0--|--|--o||--0--2--3--4--0--|-------------0--2--3--4--|
|-----|--|---||-----------------|-------------------------|


|-------------------------|-------------------------|
|-----3b----0-------------|--------3b----0----------|
|--0-------------0--2--3--|--4--0-------------0--2--|
|-------------------------|-------------------------|

|---3---|
|--------------------------|--3b----0----5--7--3h--5p--3--|
|-----------0--3--4--5--0--|------------------------------|
|--3--4--2-----------------|------------------------------|
|--------------------------|------------------------------|


|--0--0--3b----0-------0--|--0-----------------------|
|-------------------------|-------------------0------|
|-------------------------|-----2--4S-2-0--2--0------|
|-------------------0-----|--------------------------|


|--0----------------||
|--0----------------||
|--0----------------||
|-------------------||



# Also, for "waking up your army of ukes" at the beginning
# of the song, I would suggest strumming 8 muted strums
# downward followed by 16 or so more alternating strums,
# first strumming fast and then slowing it down toward the
# end. If you're not quite sure what I'm talking about,
# I'd suggest closely listening to the first part of the
# song on Youtube or in your own private collection.

 

Comentarios (2)
Debes iniciar sesión para unirte a la discusión
o Registrarse

 

Olly456 avatar
flag for CA(ISO2) (Dundas)
I agree with eddiepeach: what an excellent tab! Absolutely worth ten stars. Thanks!
17 May 2016
eddiepeach avatar
flag for CA(ISO2) (Cornerbrook)
OMG, I tabbed out all of this myself, and was going to put it on here, but then I noticed it was ALREADY HERE!I did it exactly like this too. All that work for nothing :(
Still, 10 stars, this sounds great. Couldn't have done it better myself :P
22 Feb 2012
Acerca de esta canción

No hay información por esta canción.