Love. Tab por Kendrick Lamar

2 Acordes utilizados en la canción: F, Dm

Añadir esta tab a su SongBook
Tablature / ChordsFont size: A- A A+

¿ No sabe cómo leer una tablatura o un acorde ?

curso de ukulele

F F
A|---------------------------------0-------|
E|--------------------------1--------------|
C|--------------------0--------------------|
G|---------------2-------------------------|

Give me a run for my money. There is nobody
Dm Dm
A|-------------------------0---------------|
E|-------------------1---------------------|
C|------------2----------------------------|
G|------2----------------------------------|

No one to outrun me
F F
A|-----------------------------------0-----|
E|------------------------------1----------|
C|-------------------------0---------------|
G|-------------------2---------------------|

So give me a run for my money. Sippin bubbly,
Dm Dm
A|----------------------------------0------|
E|---------------------------1-------------|
C|-------------------2---------------------|
G|-----------2-----------------------------|

Feelin' lovely,
F F
A|---------------------------------------0-|
E|----------------------------------1------|
C|---------------------------0-------------|
G|--------------------2--------------------|

Livin' lovely

 

Comentarios (0)
Ningún comentario :(
¿Necesitas ayuda, un consejo para compartir o simplemente quieres hablar sobre esta canción? Comience la discusión

Debes iniciar sesión para unirte a la discusión
o Registrarse

 

Acerca de esta canción

No hay información por esta canción.