The One That Got Away (Intro) Tab por Katy Perry

tablatura Ukulele sin acordes.

ImprimirAñadir esta tab a su SongBook
Tablature / ChordsFont size: A- A A+

¿ No sabe cómo leer una tablatura o un acorde ?

curso de ukulele

A|-----------------------------------------------|
E|-----4---4-----4---4-----4---4-----4---4-------|
C|-------4---------4---------3---------3---------|
G|---4---------4---------4---------4-------------|

A|-----------------------------------------------|
E|-----4---4-----4---4-----5----5------5----5----|
C|-------4---------4----------4-----------4------|
G|---6---------6---------6-----------6-----------|

 

Comentarios (0)
Ningún comentario :(
¿Necesitas ayuda, un consejo para compartir o simplemente quieres hablar sobre esta canción? Comience la discusión

Debes iniciar sesión para unirte a la discusión
o Registrarse

 

Acerca de esta canción

No hay información por esta canción.