Heart Tattoo (Solo) Tab por Joyce Manor

tablatura Ukulele sin acordes.

Añadir esta tab a su SongBook
Tablature / ChordsFont size: A- A A+

¿ No sabe cómo leer una tablatura o un acorde ?

curso de ukulele

# this is the instrumental between the chorus and verse 2.
# its my first tab, feedback welcome :)


A|--13--13-13--13-13--14---13--11--|
E|---------------------------------|
C|---------------------------------|
G|---------------------------------|

A|---------------------------------|
E|--11--11-11--11-11---12-11-9-7-9-|
C|---------------------------------|
G|---------------------------------|


A|--13--13-13--13-13--14---13--11--|
E|(7)------------------------------|
C|---------------------------------|
G|---------------------------------|

A|---------------------------------|
E|--11--11-11--11-11---9-9-9-9-9---|
C|---------------------------------|
G|---------------------------------|

 

Comentarios (0)
Ningún comentario :(
¿Necesitas ayuda, un consejo para compartir o simplemente quieres hablar sobre esta canción? Comience la discusión

Debes iniciar sesión para unirte a la discusión
o Registrarse

 

Acerca de esta canción

No hay información por esta canción.